ISO-10303-21;
HEADER;
FILE_DESCRIPTION (( 'STEP AP203' ),
    '1' );
FILE_NAME ('End Cap SDR17_001 115 0140 0125.step',
    '2019-12-16T11:43:29',
    ( '' ),
    ( '' ),
    'SwSTEP 2.0',
    'SolidWorks 2019',
    '' );
FILE_SCHEMA (( 'CONFIG_CONTROL_DESIGN' ));
ENDSEC;

DATA;
#1 = DIRECTION ( 'NONE',  ( 0.0000000000000000000, 0.0000000000000000000, -1.000000000000000000 ) ) ;
#2 = APPROVAL ( #8, 'BELÝRTÝLMEMÝÞ' ) ;
#3 = DIRECTION ( 'NONE',  ( -0.0000000000000000000, -1.000000000000000000, -0.0000000000000000000 ) ) ;
#4 = CARTESIAN_POINT ( 'NONE',  ( 0.0000000000000000000, 0.0000000000000000000, 0.0000000000000000000 ) ) ;
#5 = AXIS2_PLACEMENT_3D ( 'NONE', #278, #67, #179 ) ;
#6 = EDGE_CURVE ( 'NONE', #118, #119, #224, .T. ) ;
#7 = CYLINDRICAL_SURFACE ( 'NONE', #260, 55.09999999999999432 ) ;
#8 = APPROVAL_STATUS ( 'not_yet_approved' ) ;
#9 = FACE_OUTER_BOUND ( 'NONE', #101, .T. ) ;
#10 = FACE_OUTER_BOUND ( 'NONE', #200, .T. ) ;
#11 = CARTESIAN_POINT ( 'NONE',  ( 55.10000000000000142, 0.0000000000000000000, 0.0000000000000000000 ) ) ;
#12 = DIRECTION ( 'NONE',  ( 0.0000000000000000000, 0.0000000000000000000, -1.000000000000000000 ) ) ;
#13 = TOROIDAL_SURFACE ( 'NONE', #217, 2.089113506836697720, 242.6002662577982392 ) ;
#14 = DIRECTION ( 'NONE',  ( -0.0000000000000000000, -1.000000000000000000, -0.0000000000000000000 ) ) ;
#15 = DIRECTION ( 'NONE',  ( -0.0000000000000000000, -1.000000000000000000, -0.0000000000000000000 ) ) ;
#16 = LINE ( 'NONE', #130, #229 ) ;
#17 = CARTESIAN_POINT ( 'NONE',  ( 0.0000000000000000000, 0.0000000000000000000, 0.0000000000000000000 ) ) ;
#18 = PRODUCT ( 'End Cap SDR17_001 115 0140 0125', 'End Cap SDR17_001 115 0140 0125', '', ( #265 ) ) ;
#19 = DIRECTION ( 'NONE',  ( -0.0000000000000000000, -1.000000000000000000, -0.0000000000000000000 ) ) ;
#20 = CYLINDRICAL_SURFACE ( 'NONE', #232, 62.49999999999999289 ) ;
#21 = EDGE_CURVE ( 'NONE', #119, #118, #252, .T. ) ;
#22 = APPLICATION_PROTOCOL_DEFINITION ( 'international standard', 'config_control_design', 1994, #72 ) ;
#23 = FACE_OUTER_BOUND ( 'NONE', #125, .T. ) ;
#24 = PERSON_AND_ORGANIZATION_ROLE ( 'design_owner' ) ;
#25 = DIRECTION ( 'NONE',  ( 0.0000000000000000000, 0.0000000000000000000, -1.000000000000000000 ) ) ;
#26 = DATE_AND_TIME ( #249, #234 ) ;
#27 = ORIENTED_EDGE ( 'NONE', *, *, #289, .F. ) ;
#28 = AXIS2_PLACEMENT_3D ( 'NONE', #296, #97, #206 ) ;
#29 = DIRECTION ( 'NONE',  ( -0.0000000000000000000, -1.000000000000000000, -0.0000000000000000000 ) ) ;
#30 = CC_DESIGN_DATE_AND_TIME_ASSIGNMENT ( #26, #137, ( #220 ) ) ;
#31 = CLOSED_SHELL ( 'NONE', ( #218, #233, #140, #303, #149, #235, #122, #280, #75 ) ) ;
#32 = LOCAL_TIME ( 14, 43, 29.00000000000000000, #173 ) ;
#33 = CARTESIAN_POINT ( 'NONE',  ( 0.0000000000000000000, 0.0000000000000000000, 0.0000000000000000000 ) ) ;
#34 = CYLINDRICAL_SURFACE ( 'NONE', #198, 62.49999999999999289 ) ;
#35 = FACE_OUTER_BOUND ( 'NONE', #195, .T. ) ;
#36 = AXIS2_PLACEMENT_3D ( 'NONE', #44, #156, #244 ) ;
#37 = DATE_AND_TIME ( #255, #32 ) ;
#38 = LINE ( 'NONE', #150, #292 ) ;
#39 = CARTESIAN_POINT ( 'NONE',  ( 0.0000000000000000000, 87.00000000000000000, -55.09999999999998010 ) ) ;
#40 = DIRECTION ( 'NONE',  ( 0.0000000000000000000, 0.0000000000000000000, -1.000000000000000000 ) ) ;
#41 = CARTESIAN_POINT ( 'NONE',  ( 6.747803863301915183E-15, 87.00000000000000000, 55.09999999999998010 ) ) ;
#42 = DIRECTION ( 'NONE',  ( 1.000000000000000000, 0.0000000000000000000, -1.224646799147353207E-16 ) ) ;
#43 = CARTESIAN_POINT ( 'NONE',  ( 7.654042494670956226E-15, 92.85357844869207611, 62.49999999999998579 ) ) ;
#44 = CARTESIAN_POINT ( 'NONE',  ( 0.0000000000000000000, 92.85357844869207611, 0.0000000000000000000 ) ) ;
#45 = CARTESIAN_POINT ( 'NONE',  ( 7.654042494670957804E-15, 0.0000000000000000000, 62.50000000000000000 ) ) ;
#46 = DIRECTION ( 'NONE',  ( 0.0000000000000000000, 0.0000000000000000000, -1.000000000000000000 ) ) ;
#47 = DIRECTION ( 'NONE',  ( 0.0000000000000000000, 0.0000000000000000000, 1.000000000000000000 ) ) ;
#48 = DIRECTION ( 'NONE',  ( -1.000000000000000000, 0.0000000000000000000, 0.0000000000000000000 ) ) ;
#49 = CC_DESIGN_APPROVAL ( #162, ( #220 ) ) ;
#50 = CARTESIAN_POINT ( 'NONE',  ( 0.0000000000000000000, -149.7376926084301374, -2.089113506836697720 ) ) ;
#51 = PERSON_AND_ORGANIZATION_ROLE ( 'creator' ) ;
#52 = DIRECTION ( 'NONE',  ( 0.0000000000000000000, 0.0000000000000000000, 1.000000000000000000 ) ) ;
#53 = ADVANCED_BREP_SHAPE_REPRESENTATION ( 'End Cap SDR17_001 115 0140 0125', ( #76, #276 ), #247 ) ;
#54 = AXIS2_PLACEMENT_3D ( 'NONE', #259, #42, #154 ) ;
#55 = PERSON_AND_ORGANIZATION_ROLE ( 'creator' ) ;
#56 = EDGE_CURVE ( 'NONE', #108, #189, #286, .T. ) ;
#57 = DIRECTION ( 'NONE',  ( -1.000000000000000000, 0.0000000000000000000, 0.0000000000000000000 ) ) ;
#58 = CIRCLE ( 'NONE', #242, 242.6002662577982392 ) ;
#59 = DIRECTION ( 'NONE',  ( 0.0000000000000000000, 0.0000000000000000000, -1.000000000000000000 ) ) ;
#60 = DIRECTION ( 'NONE',  ( -0.0000000000000000000, -1.000000000000000000, -0.0000000000000000000 ) ) ;
#61 = CARTESIAN_POINT ( 'NONE',  ( 0.0000000000000000000, -149.7376926084301374, 0.0000000000000000000 ) ) ;
#62 = PERSON_AND_ORGANIZATION_ROLE ( 'classification_officer' ) ;
#63 = CARTESIAN_POINT ( 'NONE',  ( -1.432716039157874320E-14, 92.85357844869207611, 0.0000000000000000000 ) ) ;
#64 = CARTESIAN_POINT ( 'NONE',  ( 0.0000000000000000000, -149.7376926084301374, -2.089113506836697720 ) ) ;
#65 = FACE_OUTER_BOUND ( 'NONE', #199, .T. ) ;
#66 = CC_DESIGN_DATE_AND_TIME_ASSIGNMENT ( #37, #148, ( #190 ) ) ;
#67 = DIRECTION ( 'NONE',  ( -0.0000000000000000000, -1.000000000000000000, -0.0000000000000000000 ) ) ;
#68 = FACE_OUTER_BOUND ( 'NONE', #213, .T. ) ;
#69 = DIRECTION ( 'NONE',  ( 0.0000000000000000000, 0.0000000000000000000, -1.000000000000000000 ) ) ;
#70 = DIRECTION ( 'NONE',  ( 0.0000000000000000000, 0.0000000000000000000, -1.000000000000000000 ) ) ;
#71 = AXIS2_PLACEMENT_3D ( 'NONE', #177, #258, #40 ) ;
#72 = APPLICATION_CONTEXT ( 'configuration controlled 3d designs of mechanical parts and assemblies' ) ;
#73 = CYLINDRICAL_SURFACE ( 'NONE', #174, 55.09999999999999432 ) ;
#74 = DIRECTION ( 'NONE',  ( -0.0000000000000000000, -1.000000000000000000, -0.0000000000000000000 ) ) ;
#75 = ADVANCED_FACE ( 'NONE', ( #68 ), #13, .F. ) ;
#76 = MANIFOLD_SOLID_BREP ( 'Döndür1', #31 ) ;
#77 = CARTESIAN_POINT ( 'NONE',  ( 0.0000000000000000000, 92.85357844869207611, 0.0000000000000000000 ) ) ;
#78 = DIRECTION ( 'NONE',  ( 0.0000000000000000000, 0.0000000000000000000, 1.000000000000000000 ) ) ;
#79 = DIRECTION ( 'NONE',  ( 0.0000000000000000000, 0.0000000000000000000, -1.000000000000000000 ) ) ;
#80 = AXIS2_PLACEMENT_3D ( 'NONE', #94, #91, #89 ) ;
#81 = LOCAL_TIME ( 14, 43, 29.00000000000000000, #222 ) ;
#82 = DATE_AND_TIME ( #287, #205 ) ;
#83 = DATE_AND_TIME ( #288, #142 ) ;
#84 = CIRCLE ( 'NONE', #254, 62.50000000000000000 ) ;
#85 = EDGE_CURVE ( 'NONE', #203, #119, #58, .T. ) ;
#86 = DIRECTION ( 'NONE',  ( -0.0000000000000000000, -1.000000000000000000, -0.0000000000000000000 ) ) ;
#87 = CARTESIAN_POINT ( 'NONE',  ( 0.0000000000000000000, 87.00000000000000000, 0.0000000000000000000 ) ) ;
#88 = CIRCLE ( 'NONE', #139, 62.50000000000000000 ) ;
#89 = DIRECTION ( 'NONE',  ( 0.0000000000000000000, 0.0000000000000000000, -1.000000000000000000 ) ) ;
#90 = APPLICATION_CONTEXT ( 'configuration controlled 3d designs of mechanical parts and assemblies' ) ;
#91 = DIRECTION ( 'NONE',  ( -0.0000000000000000000, -1.000000000000000000, -0.0000000000000000000 ) ) ;
#92 = PERSON_AND_ORGANIZATION_ROLE ( 'design_supplier' ) ;
#93 = DIRECTION ( 'NONE',  ( -0.0000000000000000000, -1.000000000000000000, -0.0000000000000000000 ) ) ;
#94 = CARTESIAN_POINT ( 'NONE',  ( 0.0000000000000000000, 87.00000000000000000, 0.0000000000000000000 ) ) ;
#95 = DATE_AND_TIME ( #295, #81 ) ;
#96 = CARTESIAN_POINT ( 'NONE',  ( 0.0000000000000000000, 0.0000000000000000000, -62.50000000000000000 ) ) ;
#97 = DIRECTION ( 'NONE',  ( -0.0000000000000000000, -1.000000000000000000, -0.0000000000000000000 ) ) ;
#98 = PRODUCT_DEFINITION_FORMATION_WITH_SPECIFIED_SOURCE ( 'HERHANGÝ', '', #18, .NOT_KNOWN. ) ;
#99 = CC_DESIGN_PERSON_AND_ORGANIZATION_ASSIGNMENT ( #268, #51, ( #220 ) ) ;
#100 = DIRECTION ( 'NONE',  ( 1.000000000000000000, 0.0000000000000000000, -1.224646799147353207E-16 ) ) ;
#101 = EDGE_LOOP ( 'NONE', ( #113, #110, #115 ) ) ;
#102 = LINE ( 'NONE', #181, #301 ) ;
#103 = EDGE_LOOP ( 'NONE', ( #129, #131, #192 ) ) ;
#104 = EDGE_CURVE ( 'NONE', #171, #189, #111, .T. ) ;
#105 = DIRECTION ( 'NONE',  ( -0.0000000000000000000, -1.000000000000000000, -0.0000000000000000000 ) ) ;
#106 = VERTEX_POINT ( 'NONE', #45 ) ;
#107 = AXIS2_PLACEMENT_3D ( 'NONE', #243, #14, #128 ) ;
#108 = VERTEX_POINT ( 'NONE', #43 ) ;
#109 = APPROVAL_ROLE ( '' ) ;
#110 = ORIENTED_EDGE ( 'NONE', *, *, #272, .T. ) ;
#111 = CIRCLE ( 'NONE', #271, 250.0000000000000000 ) ;
#112 = APPROVAL_ROLE ( '' ) ;
#113 = ORIENTED_EDGE ( 'NONE', *, *, #85, .F. ) ;
#114 = EDGE_LOOP ( 'NONE', ( #172, #176, #178 ) ) ;
#115 = ORIENTED_EDGE ( 'NONE', *, *, #6, .T. ) ;
#116 = PERSON ( 'BELÝRTÝLMEMÝÞ', 'BELÝRTÝLMEMÝÞ', 'BELÝRTÝLMEMÝÞ', ('BELÝRTÝLMEMÝÞ'), ('BELÝRTÝLMEMÝÞ'), ('BELÝRTÝLMEMÝÞ') ) ;
#117 = CIRCLE ( 'NONE', #281, 250.0000000000000000 ) ;
#118 = VERTEX_POINT ( 'NONE', #41 ) ;
#119 = VERTEX_POINT ( 'NONE', #39 ) ;
#120 = APPROVAL_ROLE ( '' ) ;
#121 = EDGE_LOOP ( 'NONE', ( #141, #143, #144, #145 ) ) ;
#122 = ADVANCED_FACE ( 'NONE', ( #35 ), #34, .T. ) ;
#123 = DESIGN_CONTEXT ( 'detailed design', #90, 'design' ) ;
#124 = DIRECTION ( 'NONE',  ( 0.0000000000000000000, -1.000000000000000000, -0.0000000000000000000 ) ) ;
#125 = EDGE_LOOP ( 'NONE', ( #207, #132, #133, #135 ) ) ;
#126 = AXIS2_PLACEMENT_3D ( 'NONE', #87, #86, #79 ) ;
#127 = CC_DESIGN_SECURITY_CLASSIFICATION ( #190, ( #98 ) ) ;
#128 = DIRECTION ( 'NONE',  ( 0.0000000000000000000, 0.0000000000000000000, -1.000000000000000000 ) ) ;
#129 = ORIENTED_EDGE ( 'NONE', *, *, #104, .F. ) ;
#130 = CARTESIAN_POINT ( 'NONE',  ( 6.747803863301915972E-15, 0.0000000000000000000, 55.09999999999999432 ) ) ;
#131 = ORIENTED_EDGE ( 'NONE', *, *, #245, .T. ) ;
#132 = ORIENTED_EDGE ( 'NONE', *, *, #289, .T. ) ;
#133 = ORIENTED_EDGE ( 'NONE', *, *, #299, .F. ) ;
#134 = APPLICATION_PROTOCOL_DEFINITION ( 'international standard', 'config_control_design', 1994, #90 ) ;
#135 = ORIENTED_EDGE ( 'NONE', *, *, #306, .F. ) ;
#136 = CC_DESIGN_PERSON_AND_ORGANIZATION_ASSIGNMENT ( #273, #62, ( #190 ) ) ;
#137 = DATE_TIME_ROLE ( 'creation_date' ) ;
#138 = ORIENTED_EDGE ( 'NONE', *, *, #56, .T. ) ;
#139 = AXIS2_PLACEMENT_3D ( 'NONE', #293, #93, #202 ) ;
#140 = ADVANCED_FACE ( 'NONE', ( #23 ), #20, .T. ) ;
#141 = ORIENTED_EDGE ( 'NONE', *, *, #6, .F. ) ;
#142 = LOCAL_TIME ( 14, 43, 29.00000000000000000, #219 ) ;
#143 = ORIENTED_EDGE ( 'NONE', *, *, #294, .T. ) ;
#144 = ORIENTED_EDGE ( 'NONE', *, *, #251, .T. ) ;
#145 = ORIENTED_EDGE ( 'NONE', *, *, #215, .F. ) ;
#146 = AXIS2_PLACEMENT_3D ( 'NONE', #210, #279, #69 ) ;
#147 = ORIENTED_EDGE ( 'NONE', *, *, #294, .F. ) ;
#148 = DATE_TIME_ROLE ( 'classification_date' ) ;
#149 = ADVANCED_FACE ( 'NONE', ( #10 ), #7, .F. ) ;
#150 = CARTESIAN_POINT ( 'NONE',  ( 0.0000000000000000000, 0.0000000000000000000, -55.09999999999999432 ) ) ;
#151 = ORIENTED_EDGE ( 'NONE', *, *, #21, .F. ) ;
#152 = FACE_BOUND ( 'NONE', #197, .T. ) ;
#153 = ORIENTED_EDGE ( 'NONE', *, *, #215, .T. ) ;
#154 = DIRECTION ( 'NONE',  ( -1.224646799147353207E-16, 0.0000000000000000000, -1.000000000000000000 ) ) ;
#155 = ORIENTED_EDGE ( 'NONE', *, *, #275, .T. ) ;
#156 = DIRECTION ( 'NONE',  ( -0.0000000000000000000, -1.000000000000000000, -0.0000000000000000000 ) ) ;
#157 = ORIENTED_EDGE ( 'NONE', *, *, #299, .T. ) ;
#158 = LINE ( 'NONE', #246, #290 ) ;
#159 = ORIENTED_EDGE ( 'NONE', *, *, #187, .T. ) ;
#160 = ORIENTED_EDGE ( 'NONE', *, *, #275, .F. ) ;
#161 = ORGANIZATION ( 'BELÝRTÝLMEMÝÞ', 'BELÝRTÝLMEMÝÞ', '' ) ;
#162 = APPROVAL ( #304, 'BELÝRTÝLMEMÝÞ' ) ;
#163 = ORIENTED_EDGE ( 'NONE', *, *, #251, .F. ) ;
#164 = COORDINATED_UNIVERSAL_TIME_OFFSET ( 3, 0, .AHEAD. ) ;
#165 = CIRCLE ( 'NONE', #5, 55.10000000000000142 ) ;
#166 = CARTESIAN_POINT ( 'NONE',  ( -1.040834085586084257E-14, 100.2535784486920676, 0.0000000000000000000 ) ) ;
#167 = PERSON_AND_ORGANIZATION ( #116, #161 ) ;
#168 = ORIENTED_EDGE ( 'NONE', *, *, #306, .T. ) ;
#169 = AXIS2_PLACEMENT_3D ( 'NONE', #77, #74, #70 ) ;
#170 = ORIENTED_EDGE ( 'NONE', *, *, #187, .F. ) ;
#171 = VERTEX_POINT ( 'NONE', #166 ) ;
#172 = ORIENTED_EDGE ( 'NONE', *, *, #245, .F. ) ;
#173 = COORDINATED_UNIVERSAL_TIME_OFFSET ( 3, 0, .AHEAD. ) ;
#174 = AXIS2_PLACEMENT_3D ( 'NONE', #184, #262, #46 ) ;
#175 = CARTESIAN_POINT ( 'NONE',  ( 6.747803863301917550E-15, 0.0000000000000000000, 55.10000000000000853 ) ) ;
#176 = ORIENTED_EDGE ( 'NONE', *, *, #104, .T. ) ;
#177 = CARTESIAN_POINT ( 'NONE',  ( 0.0000000000000000000, -149.7376926084301374, 0.0000000000000000000 ) ) ;
#178 = ORIENTED_EDGE ( 'NONE', *, *, #56, .F. ) ;
#179 = DIRECTION ( 'NONE',  ( 0.0000000000000000000, 0.0000000000000000000, -1.000000000000000000 ) ) ;
#180 = ORIENTED_EDGE ( 'NONE', *, *, #272, .F. ) ;
#181 = CARTESIAN_POINT ( 'NONE',  ( 7.654042494670956226E-15, 0.0000000000000000000, 62.49999999999999289 ) ) ;
#182 = VERTEX_POINT ( 'NONE', #96 ) ;
#183 = TOROIDAL_SURFACE ( 'NONE', #28, 2.089113506836697720, 242.6002662577982392 ) ;
#184 = CARTESIAN_POINT ( 'NONE',  ( 0.0000000000000000000, 0.0000000000000000000, 0.0000000000000000000 ) ) ;
#185 = ORIENTED_EDGE ( 'NONE', *, *, #85, .T. ) ;
#186 = ORIENTED_EDGE ( 'NONE', *, *, #21, .T. ) ;
#187 = EDGE_CURVE ( 'NONE', #106, #182, #88, .T. ) ;
#188 = DIRECTION ( 'NONE',  ( 1.000000000000000000, 0.0000000000000000000, 0.0000000000000000000 ) ) ;
#189 = VERTEX_POINT ( 'NONE', #274 ) ;
#190 = SECURITY_CLASSIFICATION ( '', '', #201 ) ;
#191 = APPROVAL_DATE_TIME ( #82, #162 ) ;
#192 = ORIENTED_EDGE ( 'NONE', *, *, #291, .F. ) ;
#193 = APPROVAL_DATE_TIME ( #83, #285 ) ;
#194 = CIRCLE ( 'NONE', #36, 62.49999999999998579 ) ;
#195 = EDGE_LOOP ( 'NONE', ( #27, #138, #168, #170 ) ) ;
#196 = CC_DESIGN_PERSON_AND_ORGANIZATION_ASSIGNMENT ( #167, #92, ( #98 ) ) ;
#197 = EDGE_LOOP ( 'NONE', ( #160, #163 ) ) ;
#198 = AXIS2_PLACEMENT_3D ( 'NONE', #33, #29, #25 ) ;
#199 = EDGE_LOOP ( 'NONE', ( #157, #159 ) ) ;
#200 = EDGE_LOOP ( 'NONE', ( #147, #151, #153, #155 ) ) ;
#201 = SECURITY_CLASSIFICATION_LEVEL ( 'unclassified' ) ;
#202 = DIRECTION ( 'NONE',  ( 0.0000000000000000000, 0.0000000000000000000, -1.000000000000000000 ) ) ;
#203 = VERTEX_POINT ( 'NONE', #63 ) ;
#204 = APPROVAL_DATE_TIME ( #95, #2 ) ;
#205 = LOCAL_TIME ( 14, 43, 29.00000000000000000, #216 ) ;
#206 = DIRECTION ( 'NONE',  ( 0.0000000000000000000, 0.0000000000000000000, -1.000000000000000000 ) ) ;
#207 = ORIENTED_EDGE ( 'NONE', *, *, #291, .T. ) ;
#208 = DIRECTION ( 'NONE',  ( -1.224646799147353207E-16, 0.0000000000000000000, -1.000000000000000000 ) ) ;
#209 = VERTEX_POINT ( 'NONE', #175 ) ;
#210 = CARTESIAN_POINT ( 'NONE',  ( 0.0000000000000000000, -149.7376926084301374, 0.0000000000000000000 ) ) ;
#211 = VERTEX_POINT ( 'NONE', #256 ) ;
#212 = DIRECTION ( 'NONE',  ( 0.0000000000000000000, 0.0000000000000000000, -1.000000000000000000 ) ) ;
#213 = EDGE_LOOP ( 'NONE', ( #180, #185, #186 ) ) ;
#214 = CIRCLE ( 'NONE', #54, 242.6002662577982392 ) ;
#215 = EDGE_CURVE ( 'NONE', #119, #211, #38, .T. ) ;
#216 = COORDINATED_UNIVERSAL_TIME_OFFSET ( 3, 0, .AHEAD. ) ;
#217 = AXIS2_PLACEMENT_3D ( 'NONE', #61, #60, #59 ) ;
#218 = ADVANCED_FACE ( 'NONE', ( #9 ), #183, .F. ) ;
#219 = COORDINATED_UNIVERSAL_TIME_OFFSET ( 3, 0, .AHEAD. ) ;
#220 = PRODUCT_DEFINITION ( 'BÝLÝNMEYEN', '', #98, #123 ) ;
#221 = TOROIDAL_SURFACE ( 'NONE', #71, 2.089113506836697720, 250.0000000000000000 ) ;
#222 = COORDINATED_UNIVERSAL_TIME_OFFSET ( 3, 0, .AHEAD. ) ;
#223 = FACE_OUTER_BOUND ( 'NONE', #103, .T. ) ;
#224 = CIRCLE ( 'NONE', #80, 55.09999999999998010 ) ;
#225 = APPROVAL_PERSON_ORGANIZATION ( #237, #2, #120 ) ;
#226 = DIRECTION ( 'NONE',  ( 0.0000000000000000000, 0.0000000000000000000, -1.000000000000000000 ) ) ;
#227 = FACE_OUTER_BOUND ( 'NONE', #114, .T. ) ;
#228 = DIRECTION ( 'NONE',  ( -0.0000000000000000000, -1.000000000000000000, -0.0000000000000000000 ) ) ;
#229 = VECTOR ( 'NONE', #228, 1000.000000000000000 ) ;
#230 = PERSON_AND_ORGANIZATION ( #116, #161 ) ;
#231 = PERSON_AND_ORGANIZATION ( #116, #161 ) ;
#232 = AXIS2_PLACEMENT_3D ( 'NONE', #17, #15, #12 ) ;
#233 = ADVANCED_FACE ( 'NONE', ( #223 ), #221, .T. ) ;
#234 = LOCAL_TIME ( 14, 43, 29.00000000000000000, #164 ) ;
#235 = ADVANCED_FACE ( 'NONE', ( #65, #152 ), #240, .T. ) ;
#236 = CIRCLE ( 'NONE', #107, 55.10000000000000142 ) ;
#237 = PERSON_AND_ORGANIZATION ( #116, #161 ) ;
#238 = DIRECTION ( 'NONE',  ( -0.0000000000000000000, -1.000000000000000000, -0.0000000000000000000 ) ) ;
#239 = UNCERTAINTY_MEASURE_WITH_UNIT (LENGTH_MEASURE( 1.000000000000000082E-05 ), #302, 'distance_accuracy_value', 'NONE');
#240 = PLANE ( 'NONE',  #250 ) ;
#241 = CC_DESIGN_PERSON_AND_ORGANIZATION_ASSIGNMENT ( #270, #55, ( #98 ) ) ;
#242 = AXIS2_PLACEMENT_3D ( 'NONE', #64, #57, #52 ) ;
#243 = CARTESIAN_POINT ( 'NONE',  ( 0.0000000000000000000, 0.0000000000000000000, 0.0000000000000000000 ) ) ;
#244 = DIRECTION ( 'NONE',  ( 0.0000000000000000000, 0.0000000000000000000, -1.000000000000000000 ) ) ;
#245 = EDGE_CURVE ( 'NONE', #171, #108, #117, .T. ) ;
#246 = CARTESIAN_POINT ( 'NONE',  ( 0.0000000000000000000, 0.0000000000000000000, -62.49999999999999289 ) ) ;
#247 =( GEOMETRIC_REPRESENTATION_CONTEXT ( 3 ) GLOBAL_UNCERTAINTY_ASSIGNED_CONTEXT ( ( #239 ) ) GLOBAL_UNIT_ASSIGNED_CONTEXT ( ( #302, #283, #264 ) ) REPRESENTATION_CONTEXT ( 'NONE', 'WORKASPACE' ) );
#248 = PERSON_AND_ORGANIZATION ( #116, #161 ) ;
#249 = CALENDAR_DATE ( 2019, 16, 12 ) ;
#250 = AXIS2_PLACEMENT_3D ( 'NONE', #11, #124, #226 ) ;
#251 = EDGE_CURVE ( 'NONE', #209, #211, #165, .T. ) ;
#252 = CIRCLE ( 'NONE', #126, 55.09999999999998010 ) ;
#253 = CC_DESIGN_APPROVAL ( #2, ( #190 ) ) ;
#254 = AXIS2_PLACEMENT_3D ( 'NONE', #300, #105, #212 ) ;
#255 = CALENDAR_DATE ( 2019, 16, 12 ) ;
#256 = CARTESIAN_POINT ( 'NONE',  ( 0.0000000000000000000, 0.0000000000000000000, -55.10000000000000142 ) ) ;
#257 = CC_DESIGN_PERSON_AND_ORGANIZATION_ASSIGNMENT ( #248, #24, ( #18 ) ) ;
#258 = DIRECTION ( 'NONE',  ( -0.0000000000000000000, -1.000000000000000000, -0.0000000000000000000 ) ) ;
#259 = CARTESIAN_POINT ( 'NONE',  ( 2.558426169203064059E-16, -149.7376926084301374, 2.089113506836697720 ) ) ;
#260 = AXIS2_PLACEMENT_3D ( 'NONE', #4, #3, #1 ) ;
#261 = DIRECTION ( 'NONE',  ( -0.0000000000000000000, -1.000000000000000000, -0.0000000000000000000 ) ) ;
#262 = DIRECTION ( 'NONE',  ( -0.0000000000000000000, -1.000000000000000000, -0.0000000000000000000 ) ) ;
#263 = PRODUCT_DEFINITION_SHAPE ( 'NONE', 'NONE',  #220 ) ;
#264 =( NAMED_UNIT ( * ) SI_UNIT ( $, .STERADIAN. ) SOLID_ANGLE_UNIT ( ) );
#265 = MECHANICAL_CONTEXT ( 'NONE', #72, 'mechanical' ) ;
#266 = APPROVAL_PERSON_ORGANIZATION ( #231, #285, #112 ) ;
#267 = PRODUCT_RELATED_PRODUCT_CATEGORY ( 'detail', '', ( #18 ) ) ;
#268 = PERSON_AND_ORGANIZATION ( #116, #161 ) ;
#269 = TOROIDAL_SURFACE ( 'NONE', #146, 2.089113506836697720, 250.0000000000000000 ) ;
#270 = PERSON_AND_ORGANIZATION ( #116, #161 ) ;
#271 = AXIS2_PLACEMENT_3D ( 'NONE', #50, #48, #47 ) ;
#272 = EDGE_CURVE ( 'NONE', #203, #118, #214, .T. ) ;
#273 = PERSON_AND_ORGANIZATION ( #116, #161 ) ;
#274 = CARTESIAN_POINT ( 'NONE',  ( 0.0000000000000000000, 92.85357844869207611, -62.49999999999998579 ) ) ;
#275 = EDGE_CURVE ( 'NONE', #211, #209, #236, .T. ) ;
#276 = AXIS2_PLACEMENT_3D ( 'NONE', #284, #78, #188 ) ;
#277 = SHAPE_DEFINITION_REPRESENTATION ( #263, #53 ) ;
#278 = CARTESIAN_POINT ( 'NONE',  ( 0.0000000000000000000, 0.0000000000000000000, 0.0000000000000000000 ) ) ;
#279 = DIRECTION ( 'NONE',  ( -0.0000000000000000000, -1.000000000000000000, -0.0000000000000000000 ) ) ;
#280 = ADVANCED_FACE ( 'NONE', ( #227 ), #269, .T. ) ;
#281 = AXIS2_PLACEMENT_3D ( 'NONE', #298, #100, #208 ) ;
#282 = FACE_OUTER_BOUND ( 'NONE', #121, .T. ) ;
#283 =( NAMED_UNIT ( * ) PLANE_ANGLE_UNIT ( ) SI_UNIT ( $, .RADIAN. ) );
#284 = CARTESIAN_POINT ( 'NONE',  ( 0.0000000000000000000, 0.0000000000000000000, 0.0000000000000000000 ) ) ;
#285 = APPROVAL ( #305, 'BELÝRTÝLMEMÝÞ' ) ;
#286 = CIRCLE ( 'NONE', #169, 62.49999999999998579 ) ;
#287 = CALENDAR_DATE ( 2019, 16, 12 ) ;
#288 = CALENDAR_DATE ( 2019, 16, 12 ) ;
#289 = EDGE_CURVE ( 'NONE', #108, #106, #102, .T. ) ;
#290 = VECTOR ( 'NONE', #19, 1000.000000000000000 ) ;
#291 = EDGE_CURVE ( 'NONE', #189, #108, #194, .T. ) ;
#292 = VECTOR ( 'NONE', #238, 1000.000000000000000 ) ;
#293 = CARTESIAN_POINT ( 'NONE',  ( 0.0000000000000000000, 0.0000000000000000000, 0.0000000000000000000 ) ) ;
#294 = EDGE_CURVE ( 'NONE', #118, #209, #16, .T. ) ;
#295 = CALENDAR_DATE ( 2019, 16, 12 ) ;
#296 = CARTESIAN_POINT ( 'NONE',  ( 0.0000000000000000000, -149.7376926084301374, 0.0000000000000000000 ) ) ;
#297 = CC_DESIGN_APPROVAL ( #285, ( #98 ) ) ;
#298 = CARTESIAN_POINT ( 'NONE',  ( 2.558426169203064059E-16, -149.7376926084301374, 2.089113506836697720 ) ) ;
#299 = EDGE_CURVE ( 'NONE', #182, #106, #84, .T. ) ;
#300 = CARTESIAN_POINT ( 'NONE',  ( 0.0000000000000000000, 0.0000000000000000000, 0.0000000000000000000 ) ) ;
#301 = VECTOR ( 'NONE', #261, 1000.000000000000000 ) ;
#302 =( LENGTH_UNIT ( ) NAMED_UNIT ( * ) SI_UNIT ( .MILLI., .METRE. ) );
#303 = ADVANCED_FACE ( 'NONE', ( #282 ), #73, .F. ) ;
#304 = APPROVAL_STATUS ( 'not_yet_approved' ) ;
#305 = APPROVAL_STATUS ( 'not_yet_approved' ) ;
#306 = EDGE_CURVE ( 'NONE', #189, #182, #158, .T. ) ;
#307 = APPROVAL_PERSON_ORGANIZATION ( #230, #162, #109 ) ;
ENDSEC;
END-ISO-10303-21;
